AdeMS.web.id, Ade M Saragih archive of guitar chord, tablature, guitar lesson and lyric Today is Friday, August 23, 2019
AdeMS.web.id, Ade M Saragih archive of guitar chord, tablature and lyrics
AdeMS Guitar Archive
Search The Archive
Support AdeMS.web.id
Ads
Archive Browser
/main/b/bread/aubrey.tab
#-----------------------------PLEASE NOTE--------------------------------------#
# This AdeMS Guitar Archive file is the author's own work and represents their #
# interpretation of the song. You may only use this file for private study,    #
# scholarship, or research. Remember to view this file in Courier, or some     #
# other monospaced font.                                                       #
# Info at http://www.adems.web.id/browse.php?pustaka=faqs/adems.faqs           #
#------------------------------------------------------------------------------#

From: "Ade Mokoginta Saragih"
Subject: b/bread/aubrey.tab
Date: Sun, 16 Mar 2014 17:54:00 +0000

Song Title : Aubrey
Artist/Group band name : Bread 
>>>-----------------------------------------------------------------------------

INTRO:
|----3-------5---|----3-------2---|----0-------0---|----0--------0---|
|----3-------3---|----0-------0---|----1-------1---|----1--------1---|
|--4---4---4---4-|--0---0---0---0-|--0---0---0---0-|--0---0----0---0-|
|5-------4-------|2-------0-------|----------------|---------0-------|
|----------------|----------------|3-------2-------|0----------------|
|----------------|----------------|----------------|-----------------|


|----3-------5---|----3-------2---|----0-------0---|----0--------0---|----3-------3---|
|----3-------3---|----0-------0---|----1-------1---|----1--------1---|----0-------0---|
|--4---4---4---4-|--0---0---0---0-|--0---0---0---0-|--0---0----0---0-|--0---0---0---0-|
|5-------4-------|2-------0-------|----------------|---------0-------|----------------|
|----------------|----------------|3-------2-------|0----------------|----------------|
|----------------|----------------|----------------|-----------------|3-------2-------|
       And Aubrey was her name, a not so very ordinary girl or name. But who's to blame?

|----3-------2---|----2-------0---|----0--------0---|----3-------2---|
|----0-------0---|----0-------0---|----1--------1---|----3-------3---|
|------0---0---0-|--0---0---0---0-|--0---0----0---0-|--0---0---0---0-|
|--2-----1-------|0---------------|-----------------|----------------|
|----------------|--------4-------|3--------3-------|2-------2-------| 
|0---------------|----------------|-----------------|----------------|
     For a love that wouldn't bloom, for the hearts that never played in tune


CHORUS I:
|----0-------2---|----0-------2---|----0--------2---|----0-------0---|----0---3---2---|
|----1-------0---|----1-------3---|----1--------0---|----1-------0---|----1---1---1---|
|--0---0---0---0-|--0---0---0---0-|--0---0----0---0-|--0---0---0---0-|--2---2---2-----|
|----------------|----------------|-----------------|----------------|0---------------|
|0-------2-------|3-------2-------|0--------2-------|3-------4-------|----------------|
|----------------|----------------|-----------------|----------------|----------------|
 Like a lovely melody that everyone can sing, take away the words that rhyme, it doesn't 
mean a thing


|----3-------5---|----3-------2---|----0-------0---|----0--------0---|----3-------3---|
|----3-------3---|----0-------0---|----1-------1---|----1--------1---|----0-------0---|
|--4---4---4---4-|--0---0---0---0-|--0---0---0---0-|--0---0----0---0-|--0---0---0---0-|
|5-------4-------|2-------0-------|----------------|---------0-------|----------------|
|----------------|----------------|3-------2-------|0----------------|----------------|
|----------------|----------------|----------------|-----------------|3-------2-------|
       And Aubrey was her name, we tripped the light and danced together to the moon.
But where was June?


|----3-------2---|----2-------0---|----0--------0---|----3-------2---|
|----0-------0---|----0-------0---|----1--------1---|----3-------3---|
|------0---0---0-|--0---0---0---0-|--0---0----0---0-|--0---0---0---0-|
|--2-----1-------|0---------------|-----------------|----------------|
|----------------|--------4-------|3--------3-------|2-------2-------| 
|0---------------|----------------|-----------------|----------------|
 No, it never came around. If it did it never made a sound.


CHORUS II:
|----0-------2---|----0-------2---|----0--------2---|----0-------0---|----------------|
|----1-------0---|----1-------3---|----1--------0---|----1-------0---|----3-----3-----|
|--0---0---0---0-|--0---0---0---0-|--0---0----0---0-|--0---0---0---0-|--4-----4-----4-|
|----------------|----------------|-----------------|----------------|0-----0-----0---|
|0-------2-------|3-------2-------|0--------2-------|3-------4-------|----------------|
|----------------|----------------|-----------------|----------------|----------------|
 Maybe I was absent or was listening too fast, catching all the words but then the meaning 
going past

 
|----------------|----------------|----------------|----3-------3---|----3-------3---| 
|----0-----0-----|----0-----0-----|--3-------3-----|--1-------1---1-|--1-------1---1-|
|--2-----2-----2-|--0----------(0)|-------------(0)|----------------|----------------|
|1-----1-----1---|2-------2---2---|3---3---3---3---|2-------2-------|1-------1-------|
|----------------|----------------|----------------|----------------|----------------|
|----------------|------0---------|------3---------|------3---------|------3---------|  
        But God I miss the girl, and I'd go a thousand times around the world just to 
be closer to her than to ..

INT:
|----3-------5---|----3-------2---|----0-------0---|----0--------0---|
|----3-------3---|----0-------0---|----1-------1---|----1--------1---|
|--4---4---4---4-|--0---0---0---0-|--0---0---0---0-|--0---0----0---0-|
|5-------4-------|2-------0-------|----------------|---------0-------|
|----------------|----------------|3-------2-------|0----------------|
|----------------|----------------|----------------|-----------------|
 me...
 
 
|----3-------5---|----3-------2---|----0-------0---|----0--------0---|----3-------3---|
|----3-------3---|----0-------0---|----1-------1---|----1--------1---|----0-------0---|
|--4---4---4---4-|--0---0---0---0-|--0---0---0---0-|--0---0----0---0-|--0---0---0---0-|
|5-------4-------|2-------0-------|----------------|---------0-------|----------------|
|----------------|----------------|3-------2-------|0----------------|----------------|
|----------------|----------------|----------------|-----------------|3-------2-------|
       And Aubrey was her name, I never knew her but I loved her just the same. I loved 
her name

|----3-------2---|----2-------0---|----0--------0---|----3-------2---|
|----0-------0---|----0-------0---|----1--------1---|----3-------3---|
|------0---0---0-|--0---0---0---0-|--0---0----0---0-|--0---0---0---0-|
|--2-----1-------|0---------------|-----------------|----------------|
|----------------|--------4-------|3--------3-------|2-------2-------| 
|0---------------|----------------|-----------------|----------------|
 Wish that I had found the way, and the reasons that would make her stay


CHORUS II:
|----0-------2---|----0-------2---|----0--------2---|----0-------0---|----------------|
|----1-------0---|----1-------3---|----1--------0---|----1-------0---|----3-----3-----|
|--0---0---0---0-|--0---0---0---0-|--0---0----0---0-|--0---0---0---0-|--4-----4-----4-|
|----------------|----------------|-----------------|----------------|0-----0-----0---|
|0-------2-------|3-------2-------|0--------2-------|3-------4-------|----------------|
|----------------|----------------|-----------------|----------------|----------------|
 I have learned to lead a life apart from all the rest, if I can't have the one I want, 
I'll do without the best

 
|----------------|----------------|----------------|----3-------3---|----3-------3---| 
|----0-----0-----|----0-----0-----|--3-------3-----|--1-------1---1-|--1-------1---1-|
|--2-----2-----2-|--0----------(0)|-------------(0)|----------------|----------------|
|1-----1-----1---|2-------2---2---|3---3---3---3---|2-------2-------|1-------1-------|
|----------------|----------------|----------------|----------------|----------------|
|----------------|------0---------|------3---------|------3---------|------3---------|  
       But how I miss the girl, and I'd go a million times around the world just to say. 
She had been mine for a ...


INT:
|----3-------5---|----3-------2---|----0-------0---|----0--------0---|
|----3-------3---|----0-------0---|----1-------1---|----1--------1---|
|--4---4---4---4-|--0---0---0---0-|--0---0---0---0-|--0---0----0---0-|
|5-------4-------|2-------0-------|----------------|---------0-------|
|----------------|----------------|3-------2-------|0----------------|
|----------------|----------------|----------------|-----------------|
 day...



Copyright 2000-2019, Tempat AdeMS.